AnasayfaGaleriSSSAramaÜye ListesiKullanıcı GruplarıKayıt OlGiriş yap
Giriş yap
Kullanıcı Adı:
Şifre:
Beni hatırla: 
:: Şifremi unuttum
Forum İstatistik
Forum Saphira'ya Hoşgeldin; Misafir
Senin Toplam 0 Mesajın Var.
Tarihinden Beri Bizimlesin
Son Ziyaretiniz:
Son Üyemiz : ilkerarslan

3650 Gündür yayındayız
2162 Konumuz var
9233 Mesaj gönderildi
Senden İyi Olmasın 155 Kullanıcımız Var
Saat Kaç?
En son konular
» kısacaa ßhenn :)
Cuma Ara. 31, 2010 4:52 pm tarafından ilkerarslan

» Yine Yeniden Saphira' 10
Çarş. Ekim 06, 2010 1:26 pm tarafından AdminCem

» herkese selamlar .)
Çarş. Ekim 06, 2010 12:50 am tarafından AdminCem

» evet ben yeniyim (:
Çarş. Ekim 06, 2010 12:50 am tarafından AdminCem

» - Atatürkün Hayatı Anıları Atatürk resimleri yazıları -
Çarş. Eyl. 29, 2010 4:02 pm tarafından rtnrtn

» EmRe ayDıN fotoLaRı 2...
Çarş. Haz. 23, 2010 7:05 pm tarafından matraq.xD

» kaLan sağLaR seNin oLsuN..(RESİMLİ)
Çarş. Haz. 23, 2010 7:03 pm tarafından matraq.xD

» Bu keZ anLadım ( resımLı)
Çarş. Haz. 23, 2010 7:03 pm tarafından matraq.xD

» içecek şişelernden sanat..
Çarş. Haz. 23, 2010 6:58 pm tarafından matraq.xD

» yumuRta kabukLaRına bakıNn süpeRr bnce ;)
Çarş. Haz. 23, 2010 6:57 pm tarafından matraq.xD

En iyi yollayıcılar
muzur_kedi
 
AdminCem
 
*ßOnNy--girL*
 
ßüshRa
 
ßaTeRiST DeN!Ss
 
saphira_smge
 
Angelic Girl
 
PeSiMiST_SaGoPa_KaJMeR
 
baqtery
 
JeLibon
 
Program İndir
Spor Haberleri
Anket
Yeni Tema Ve Arkaplanımız Nasıl???
Süper Ötesi
67%
 67% [ 2 ]
Öğğ İğrenç
0%
 0% [ 0 ]
Ne İyi Ne Kötü Fifty Fifty
33%
 33% [ 1 ]
Toplam Oylar : 3
Arama
 
 

Sonuç :
 
Rechercher çıkıntı araştırma
Adminle İletişim
Destekleyenler
free forum
Sitemizi Destekle
http://forumsaphira.clubme.net/tell_friend.forum?f
Facebook Ekle
Cem Agirgez

Kartınızı Oluşturun
Istatistikler
Toplam 155 kayıtlı kullanıcımız var
Son kaydolan kullanıcımız: ilkerarslan

Kullanıcılarımız toplam 9233 mesaj attılar bunda 2162 konu

Paylaş | 
 

 aKorLaR

Aşağa gitmek 
YazarMesaj
muzur_kedi
S.Mod
S.Mod
avatar

Kadın Mesaj Sayısı : 1759
Yaş : 26
Ruh Halim :
Kayıt tarihi : 31/05/08


Başarı:
900/1000  (900/1000)
Rep Puanı:
510/1500  (510/1500)

MesajKonu: aKorLaR   Perş. Tem. 31, 2008 4:12 pm

Boşver

Intro: | B5-A#5-B5-G#5 |x2

G#m(add9) e5
Hikayeler anlatıldı, Aşk meşk bağlılık hakkında
B c#m
Ağlayacak yer kalmadı, sahte dostların omzunda
G#m e
Tükenen sensin aslında, Yanlızsın artık oyunda
B C#m D# e
Son pişmanlık fayda etmez, Azrailin makamında

Geçiş:
e---------------------------------
B---------------------------------
G--8-8-8-6-6-6-4-4-4-3-3-3-3-3-3-4
D---------------------------------
A--6-6-6-4-4-4-2-2-2-1-1-1-1-1-1-2
E---------------------------------

E D# e
Boşver konuşma, Bir dön bak arkana
B D# e
Yaşanmamış olanlar, Pişmanlık aslında
E D# e
Yoksun zamanla akrep dolandıkça
B D# G#m
Yelkovan yorulmaz, Kalbin yorulsada

_________________
q-a-mze
Sayfa başına dön Aşağa gitmek
Kullanıcı profilini gör http://www.chatlakforum.benimforum.biz/
muzur_kedi
S.Mod
S.Mod
avatar

Kadın Mesaj Sayısı : 1759
Yaş : 26
Ruh Halim :
Kayıt tarihi : 31/05/08


Başarı:
900/1000  (900/1000)
Rep Puanı:
510/1500  (510/1500)

MesajKonu: Geri: aKorLaR   Perş. Tem. 31, 2008 4:15 pm

Böyle Kahpedir Dünya

INTRO
E-----------------------------------------------------------
B---7-7-7-7--6-6-6-6--4-4-4-4-4-4-4-4-----------------------
G-----------------------------------------------------------
D-----------------------------------------------------------
A-----------------------------------------------------------
E-----------------------------------------------------------


E---------------------------7-7-7-7--6-6-6-6--4-4-4-4---------4-----
B--6-6-6-6--4-4-4-4------------------------------------4-6-7----7-6-
G--------------------7-7-7-7--------------------------------
D----------------------------------------------------------
A-----------------------------------------------------------
E----------------------------------------------------------

ARA SOLO

E -----4-6-4---9-7-6-7------4-6-4---9-7-6-7------4-6-4---11-9-7-9---6--4-7---6----
B ----------------------------------------------------------
G ---------------------------------------------------------
D ---------------------------------------------------------
A ---------------------------------------------------------
E ---------------------------------------------------------


Am
Söyle kaç yaşındasın
E
Dertlerin başındasın
Dm
İstisnasız her an
Am
Geçmişi özlüyorsan

Am
Bilmem kaç yaşındasın
E
Gözleri yaşlardasın
Dm
İstisnasız her an
Am
Yarını düşlüyorsan

Bb
Yolculuk nereye
A
Neler uğruna ölmeye
Bb Am
Dört yalnızlıkla bir doğruyu götürmeye

A Dm
Hadi durma ağla,ağla
A
Yaşlar kurur zamanla,ağla
A Bb
Böyle kahpedir dünya
A
Son bulur kollarında

A Dm
Hadi durma ağla,ağla
A
Yüzünü ıslatmasan da ağla
A Bb
Belki hepsi bir ruya
A
Son bulur kollarında

Am
Söyle kaç yaşındasın
E
Herkes kadar yalnız mısın?
Dm
İnce ince titremen
Am
Soğuktan mı sanırsın?

Am
Bilmem kaç yaşındasın
E
Herşeyin farkındasın
Dm
Acılar biriktirip
Am
Damla damla harcarsın

Bb
Yolculuk nereye
A
Kimler uğruna ölmeye
Bb A
Dört yalnızlıkla bir doğruyu götürmeye


A Dm
Hadi durma ağla ağla
A
Yaşlar kurur zamanla,ağla
A Bb
Böyle kahpedir dünya
A
Son bulur kollarında


A Dm
Hadi durma ağla,ağla
A
Yüzünü ıslatmasan da ağla
A Bb
Belki hepsi bir ruya
A
Son bulur kollarında

_________________
q-a-mze
Sayfa başına dön Aşağa gitmek
Kullanıcı profilini gör http://www.chatlakforum.benimforum.biz/
 
aKorLaR
Sayfa başına dön 
1 sayfadaki 1 sayfası

Bu forumun müsaadesi var:Bu forumdaki mesajlara cevap veremezsiniz
 :: RockTüel :: Gripin :: Diğer-
Buraya geçin:  
forum kurmak | © phpBB | Bedava yardımlaşma forumu | Suistimalı göstermek | Ücretsiz blogunuzu yaratın